ISO-10303-21;
HEADER;
FILE_DESCRIPTION (( 'STEP AP203' ),
    '1' );
FILE_NAME ('Q-QZWP-R4-12.7-780-M.STEP',
    '2020-12-23T01:24:17',
    ( '' ),
    ( '' ),
    'SwSTEP 2.0',
    'SolidWorks 2020',
    '' );
FILE_SCHEMA (( 'CONFIG_CONTROL_DESIGN' ));
ENDSEC;

DATA;
#1 = CC_DESIGN_PERSON_AND_ORGANIZATION_ASSIGNMENT ( #250, #15, ( #49 ) ) ;
#2 = CIRCLE ( 'NONE', #280, 12.69999999999999929 ) ;
#3 = VERTEX_POINT ( 'NONE', #57 ) ;
#4 = VERTEX_POINT ( 'NONE', #160 ) ;
#5 = EDGE_LOOP ( 'NONE', ( #156, #104, #310, #242 ) ) ;
#6 = AXIS2_PLACEMENT_3D ( 'NONE', #320, #330, #72 ) ;
#7 = APPROVAL_PERSON_ORGANIZATION ( #304, #293, #50 ) ;
#8 = VERTEX_POINT ( 'NONE', #63 ) ;
#9 = EDGE_LOOP ( 'NONE', ( #131, #264 ) ) ;
#10 = CARTESIAN_POINT ( 'NONE',  ( 3.000000000000000888, 0.000000000000000000, 0.000000000000000000 ) ) ;
#11 = LOCAL_TIME ( 9, 24, 17.00000000000000000, #171 ) ;
#12 = DIRECTION ( 'NONE',  ( 0.000000000000000000, 0.000000000000000000, 1.000000000000000000 ) ) ;
#13 = CARTESIAN_POINT ( 'NONE',  ( -1.614212418857619014, 0.000000000000000000, 0.000000000000000000 ) ) ;
#14 = CARTESIAN_POINT ( 'NONE',  ( -1.500000000000000444, 7.776507174585692163E-16, -6.349999999999999645 ) ) ;
#15 = PERSON_AND_ORGANIZATION_ROLE ( 'creator' ) ;
#16 = DIRECTION ( 'NONE',  ( -1.000000000000000000, -0.000000000000000000, -0.000000000000000000 ) ) ;
#17 = DIRECTION ( 'NONE',  ( -1.000000000000000000, -0.000000000000000000, -0.000000000000000000 ) ) ;
#18 = AXIS2_PLACEMENT_3D ( 'NONE', #325, #113, #329 ) ;
#19 = CYLINDRICAL_SURFACE ( 'NONE', #317, 12.69999999999999929 ) ;
#20 =( LENGTH_UNIT ( ) NAMED_UNIT ( * ) SI_UNIT ( .MILLI., .METRE. ) );
#21 = CYLINDRICAL_SURFACE ( 'NONE', #65, 12.69999999999999929 ) ;
#22 = DESIGN_CONTEXT ( 'detailed design', #169, 'design' ) ;
#23 = CIRCLE ( 'NONE', #84, 6.349999999999999645 ) ;
#24 = COORDINATED_UNIVERSAL_TIME_OFFSET ( 8, 0, .AHEAD. ) ;
#25 = ORIENTED_EDGE ( 'NONE', *, *, #240, .T. ) ;
#26 = CIRCLE ( 'NONE', #31, 12.69999999999999929 ) ;
#27 = ORIENTED_EDGE ( 'NONE', *, *, #333, .T. ) ;
#28 = ORIENTED_EDGE ( 'NONE', *, *, #142, .F. ) ;
#29 = ADVANCED_FACE ( 'NONE', ( #290, #248 ), #322, .F. ) ;
#30 = VERTEX_POINT ( 'NONE', #168 ) ;
#31 = AXIS2_PLACEMENT_3D ( 'NONE', #87, #178, #70 ) ;
#32 = EDGE_LOOP ( 'NONE', ( #158, #25, #53, #241 ) ) ;
#33 = CARTESIAN_POINT ( 'NONE',  ( 1.500000000000000888, 0.000000000000000000, 0.000000000000000000 ) ) ;
#34 = CARTESIAN_POINT ( 'NONE',  ( -1.614212418857619014, 0.000000000000000000, 0.000000000000000000 ) ) ;
#35 = ADVANCED_FACE ( 'NONE', ( #112 ), #217, .F. ) ;
#36 = CARTESIAN_POINT ( 'NONE',  ( -3.000000000000000000, 0.000000000000000000, 12.69999999999999929 ) ) ;
#37 = DIRECTION ( 'NONE',  ( -1.000000000000000000, -0.000000000000000000, -0.000000000000000000 ) ) ;
#38 = LOCAL_TIME ( 9, 24, 17.00000000000000000, #236 ) ;
#39 = DIRECTION ( 'NONE',  ( 0.000000000000000000, 0.000000000000000000, 1.000000000000000000 ) ) ;
#40 = CARTESIAN_POINT ( 'NONE',  ( 1.500000000000000444, 6.349999999999999645, 0.000000000000000000 ) ) ;
#41 = APPLICATION_PROTOCOL_DEFINITION ( 'international standard', 'config_control_design', 1994, #256 ) ;
#42 = DIRECTION ( 'NONE',  ( -1.000000000000000000, -0.000000000000000000, -0.000000000000000000 ) ) ;
#43 = CARTESIAN_POINT ( 'NONE',  ( -1.614212418857619014, 0.000000000000000000, 0.000000000000000000 ) ) ;
#44 = DIRECTION ( 'NONE',  ( -0.000000000000000000, 0.000000000000000000, 1.000000000000000000 ) ) ;
#45 = FACE_OUTER_BOUND ( 'NONE', #259, .T. ) ;
#46 = CIRCLE ( 'NONE', #263, 6.349999999999999645 ) ;
#47 = DIRECTION ( 'NONE',  ( 1.000000000000000000, 0.000000000000000000, 0.000000000000000000 ) ) ;
#48 = EDGE_CURVE ( 'NONE', #315, #8, #2, .T. ) ;
#49 = PRODUCT_DEFINITION ( 'UNKNOWN', '', #246, #22 ) ;
#50 = APPROVAL_ROLE ( '' ) ;
#51 = CLOSED_SHELL ( 'NONE', ( #277, #59, #120, #186, #56, #35, #151, #198, #29, #204 ) ) ;
#52 = CALENDAR_DATE ( 2020, 23, 12 ) ;
#53 = ORIENTED_EDGE ( 'NONE', *, *, #309, .T. ) ;
#54 = LOCAL_TIME ( 9, 24, 17.00000000000000000, #298 ) ;
#55 = ORIENTED_EDGE ( 'NONE', *, *, #305, .T. ) ;
#56 = ADVANCED_FACE ( 'NONE', ( #222 ), #61, .F. ) ;
#57 = CARTESIAN_POINT ( 'NONE',  ( -1.500000000000000444, 0.000000000000000000, 6.349999999999999645 ) ) ;
#58 = ORIENTED_EDGE ( 'NONE', *, *, #166, .F. ) ;
#59 = ADVANCED_FACE ( 'NONE', ( #191 ), #188, .F. ) ;
#60 = DIRECTION ( 'NONE',  ( 0.000000000000000000, 0.000000000000000000, 1.000000000000000000 ) ) ;
#61 = CYLINDRICAL_SURFACE ( 'NONE', #211, 6.349999999999999645 ) ;
#62 = DIRECTION ( 'NONE',  ( -1.000000000000000000, -0.000000000000000000, -0.000000000000000000 ) ) ;
#63 = CARTESIAN_POINT ( 'NONE',  ( 3.000000000000000000, 0.000000000000000000, 12.69999999999999929 ) ) ;
#64 = DIRECTION ( 'NONE',  ( -1.000000000000000000, -0.000000000000000000, -0.000000000000000000 ) ) ;
#65 = AXIS2_PLACEMENT_3D ( 'NONE', #43, #37, #68 ) ;
#66 = VECTOR ( 'NONE', #200, 1000.000000000000000 ) ;
#67 = CARTESIAN_POINT ( 'NONE',  ( -1.614212418857619014, 0.000000000000000000, 12.69999999999999929 ) ) ;
#68 = DIRECTION ( 'NONE',  ( 0.000000000000000000, 0.000000000000000000, 1.000000000000000000 ) ) ;
#69 = DIRECTION ( 'NONE',  ( 0.000000000000000000, 0.000000000000000000, 1.000000000000000000 ) ) ;
#70 = DIRECTION ( 'NONE',  ( 0.000000000000000000, 0.000000000000000000, 1.000000000000000000 ) ) ;
#71 = CARTESIAN_POINT ( 'NONE',  ( -1.614212418857619014, 7.776507174585692163E-16, -6.349999999999999645 ) ) ;
#72 = DIRECTION ( 'NONE',  ( 0.000000000000000000, 0.000000000000000000, 1.000000000000000000 ) ) ;
#73 = DATE_AND_TIME ( #207, #163 ) ;
#74 = DATE_AND_TIME ( #235, #141 ) ;
#75 = AXIS2_PLACEMENT_3D ( 'NONE', #299, #62, #175 ) ;
#76 = CC_DESIGN_APPROVAL ( #293, ( #183 ) ) ;
#77 = APPROVAL_ROLE ( '' ) ;
#78 = ORIENTED_EDGE ( 'NONE', *, *, #180, .F. ) ;
#79 = ORIENTED_EDGE ( 'NONE', *, *, #105, .T. ) ;
#80 = AXIS2_PLACEMENT_3D ( 'NONE', #117, #296, #228 ) ;
#81 = ORIENTED_EDGE ( 'NONE', *, *, #91, .T. ) ;
#82 = ORIENTED_EDGE ( 'NONE', *, *, #305, .F. ) ;
#83 = EDGE_LOOP ( 'NONE', ( #159, #258, #107, #28 ) ) ;
#84 = AXIS2_PLACEMENT_3D ( 'NONE', #10, #190, #69 ) ;
#85 = PRODUCT_DEFINITION_SHAPE ( 'NONE', 'NONE',  #49 ) ;
#86 = LINE ( 'NONE', #89, #181 ) ;
#87 = CARTESIAN_POINT ( 'NONE',  ( -3.000000000000000000, 0.000000000000000000, 0.000000000000000000 ) ) ;
#88 = DIRECTION ( 'NONE',  ( -1.000000000000000000, -0.000000000000000000, -0.000000000000000000 ) ) ;
#89 = CARTESIAN_POINT ( 'NONE',  ( -1.614212418857619014, 1.555301434917138433E-15, -12.69999999999999929 ) ) ;
#90 = CALENDAR_DATE ( 2020, 23, 12 ) ;
#91 = EDGE_CURVE ( 'NONE', #111, #287, #276, .T. ) ;
#92 = DIRECTION ( 'NONE',  ( 0.000000000000000000, 0.000000000000000000, -1.000000000000000000 ) ) ;
#93 = CARTESIAN_POINT ( 'NONE',  ( 1.500000000000000888, 7.776507174585692163E-16, -6.349999999999999645 ) ) ;
#94 = AXIS2_PLACEMENT_3D ( 'NONE', #243, #16, #301 ) ;
#95 = LINE ( 'NONE', #97, #268 ) ;
#96 = APPLICATION_PROTOCOL_DEFINITION ( 'international standard', 'config_control_design', 1994, #169 ) ;
#97 = CARTESIAN_POINT ( 'NONE',  ( -1.614212418857619014, 0.000000000000000000, 6.349999999999999645 ) ) ;
#98 = LINE ( 'NONE', #220, #66 ) ;
#99 = DATE_TIME_ROLE ( 'classification_date' ) ;
#100 = VECTOR ( 'NONE', #42, 1000.000000000000000 ) ;
#101 = PERSON_AND_ORGANIZATION ( #116, #303 ) ;
#102 = DATE_AND_TIME ( #52, #38 ) ;
#103 = AXIS2_PLACEMENT_3D ( 'NONE', #265, #294, #60 ) ;
#104 = ORIENTED_EDGE ( 'NONE', *, *, #48, .T. ) ;
#105 = EDGE_CURVE ( 'NONE', #214, #30, #255, .T. ) ;
#106 = CC_DESIGN_DATE_AND_TIME_ASSIGNMENT ( #102, #99, ( #183 ) ) ;
#107 = ORIENTED_EDGE ( 'NONE', *, *, #166, .T. ) ;
#108 = VERTEX_POINT ( 'NONE', #36 ) ;
#109 = AXIS2_PLACEMENT_3D ( 'NONE', #230, #17, #302 ) ;
#110 = VERTEX_POINT ( 'NONE', #14 ) ;
#111 = VERTEX_POINT ( 'NONE', #126 ) ;
#112 = FACE_OUTER_BOUND ( 'NONE', #32, .T. ) ;
#113 = DIRECTION ( 'NONE',  ( -1.000000000000000000, -0.000000000000000000, -0.000000000000000000 ) ) ;
#114 = AXIS2_PLACEMENT_3D ( 'NONE', #149, #226, #47 ) ;
#115 = CARTESIAN_POINT ( 'NONE',  ( 3.000000000000000000, 0.000000000000000000, 0.000000000000000000 ) ) ;
#116 = PERSON ( 'UNSPECIFIED', 'UNSPECIFIED', 'UNSPECIFIED', ('UNSPECIFIED'), ('UNSPECIFIED'), ('UNSPECIFIED') ) ;
#117 = CARTESIAN_POINT ( 'NONE',  ( -3.000000000000000000, 6.349999999999999645, 0.000000000000000000 ) ) ;
#118 = PERSON_AND_ORGANIZATION ( #116, #303 ) ;
#119 = EDGE_CURVE ( 'NONE', #182, #209, #23, .T. ) ;
#120 = ADVANCED_FACE ( 'NONE', ( #231 ), #292, .F. ) ;
#121 = CARTESIAN_POINT ( 'NONE',  ( -1.500000000000000444, 0.000000000000000000, 0.000000000000000000 ) ) ;
#122 = LINE ( 'NONE', #193, #308 ) ;
#123 = FACE_OUTER_BOUND ( 'NONE', #239, .T. ) ;
#124 =( NAMED_UNIT ( * ) SI_UNIT ( $, .STERADIAN. ) SOLID_ANGLE_UNIT ( ) );
#125 = AXIS2_PLACEMENT_3D ( 'NONE', #176, #144, #253 ) ;
#126 = CARTESIAN_POINT ( 'NONE',  ( 1.500000000000000888, 0.000000000000000000, 6.349999999999999645 ) ) ;
#127 = AXIS2_PLACEMENT_3D ( 'NONE', #40, #272, #44 ) ;
#128 = APPROVAL_STATUS ( 'not_yet_approved' ) ;
#129 = AXIS2_PLACEMENT_3D ( 'NONE', #139, #295, #170 ) ;
#130 = EDGE_LOOP ( 'NONE', ( #27, #133 ) ) ;
#131 = ORIENTED_EDGE ( 'NONE', *, *, #152, .F. ) ;
#132 = ORIENTED_EDGE ( 'NONE', *, *, #279, .F. ) ;
#133 = ORIENTED_EDGE ( 'NONE', *, *, #119, .T. ) ;
#134 = AXIS2_PLACEMENT_3D ( 'NONE', #33, #164, #136 ) ;
#135 = ORIENTED_EDGE ( 'NONE', *, *, #212, .F. ) ;
#136 = DIRECTION ( 'NONE',  ( 0.000000000000000000, 0.000000000000000000, 1.000000000000000000 ) ) ;
#137 = FACE_OUTER_BOUND ( 'NONE', #284, .T. ) ;
#138 = DIRECTION ( 'NONE',  ( -1.000000000000000000, 0.000000000000000000, -0.000000000000000000 ) ) ;
#139 = CARTESIAN_POINT ( 'NONE',  ( -1.500000000000000444, 0.000000000000000000, 0.000000000000000000 ) ) ;
#140 = DIRECTION ( 'NONE',  ( -1.000000000000000000, -0.000000000000000000, -0.000000000000000000 ) ) ;
#141 = LOCAL_TIME ( 9, 24, 17.00000000000000000, #335 ) ;
#142 = EDGE_CURVE ( 'NONE', #209, #111, #95, .T. ) ;
#143 = DIRECTION ( 'NONE',  ( 0.000000000000000000, 0.000000000000000000, 1.000000000000000000 ) ) ;
#144 = DIRECTION ( 'NONE',  ( -1.000000000000000000, -0.000000000000000000, -0.000000000000000000 ) ) ;
#145 = LINE ( 'NONE', #71, #153 ) ;
#146 = MECHANICAL_CONTEXT ( 'NONE', #256, 'mechanical' ) ;
#147 = PLANE ( 'NONE',  #312 ) ;
#148 = AXIS2_PLACEMENT_3D ( 'NONE', #34, #245, #12 ) ;
#149 = CARTESIAN_POINT ( 'NONE',  ( 0.000000000000000000, 0.000000000000000000, 0.000000000000000000 ) ) ;
#150 = PERSON_AND_ORGANIZATION_ROLE ( 'classification_officer' ) ;
#151 = ADVANCED_FACE ( 'NONE', ( #252, #123 ), #196, .F. ) ;
#152 = EDGE_CURVE ( 'NONE', #8, #315, #289, .T. ) ;
#153 = VECTOR ( 'NONE', #275, 1000.000000000000000 ) ;
#154 = APPROVAL_STATUS ( 'not_yet_approved' ) ;
#155 = CC_DESIGN_PERSON_AND_ORGANIZATION_ASSIGNMENT ( #205, #257, ( #246 ) ) ;
#156 = ORIENTED_EDGE ( 'NONE', *, *, #227, .F. ) ;
#157 = APPROVAL_PERSON_ORGANIZATION ( #118, #203, #324 ) ;
#158 = ORIENTED_EDGE ( 'NONE', *, *, #307, .F. ) ;
#159 = ORIENTED_EDGE ( 'NONE', *, *, #119, .F. ) ;
#160 = CARTESIAN_POINT ( 'NONE',  ( -3.000000000000000000, 1.555301434917138433E-15, -12.69999999999999929 ) ) ;
#161 = EDGE_LOOP ( 'NONE', ( #132, #187 ) ) ;
#162 = CIRCLE ( 'NONE', #6, 6.349999999999999645 ) ;
#163 = LOCAL_TIME ( 9, 24, 17.00000000000000000, #24 ) ;
#164 = DIRECTION ( 'NONE',  ( -1.000000000000000000, -0.000000000000000000, -0.000000000000000000 ) ) ;
#165 = CARTESIAN_POINT ( 'NONE',  ( -1.614212418857619014, 0.000000000000000000, 0.000000000000000000 ) ) ;
#166 = EDGE_CURVE ( 'NONE', #287, #111, #327, .T. ) ;
#167 = CARTESIAN_POINT ( 'NONE',  ( 1.500000000000000888, 0.000000000000000000, 0.000000000000000000 ) ) ;
#168 = CARTESIAN_POINT ( 'NONE',  ( -2.999999999999999556, 0.000000000000000000, 6.349999999999999645 ) ) ;
#169 = APPLICATION_CONTEXT ( 'configuration controlled 3d designs of mechanical parts and assemblies' ) ;
#170 = DIRECTION ( 'NONE',  ( 0.000000000000000000, 0.000000000000000000, -1.000000000000000000 ) ) ;
#171 = COORDINATED_UNIVERSAL_TIME_OFFSET ( 8, 0, .AHEAD. ) ;
#172 = UNCERTAINTY_MEASURE_WITH_UNIT (LENGTH_MEASURE( 1.000000000000000082E-05 ), #20, 'distance_accuracy_value', 'NONE');
#173 = DIRECTION ( 'NONE',  ( 0.000000000000000000, 0.000000000000000000, 1.000000000000000000 ) ) ;
#174 =( NAMED_UNIT ( * ) PLANE_ANGLE_UNIT ( ) SI_UNIT ( $, .RADIAN. ) );
#175 = DIRECTION ( 'NONE',  ( 0.000000000000000000, 0.000000000000000000, 1.000000000000000000 ) ) ;
#176 = CARTESIAN_POINT ( 'NONE',  ( -2.999999999999999556, 0.000000000000000000, 0.000000000000000000 ) ) ;
#177 = DIRECTION ( 'NONE',  ( -1.000000000000000000, -0.000000000000000000, -0.000000000000000000 ) ) ;
#178 = DIRECTION ( 'NONE',  ( -1.000000000000000000, -0.000000000000000000, -0.000000000000000000 ) ) ;
#179 = CIRCLE ( 'NONE', #109, 12.69999999999999929 ) ;
#180 = EDGE_CURVE ( 'NONE', #3, #110, #234, .T. ) ;
#181 = VECTOR ( 'NONE', #192, 1000.000000000000000 ) ;
#182 = VERTEX_POINT ( 'NONE', #249 ) ;
#183 = SECURITY_CLASSIFICATION ( '', '', #201 ) ;
#184 = ORIENTED_EDGE ( 'NONE', *, *, #91, .F. ) ;
#185 = ORIENTED_EDGE ( 'NONE', *, *, #152, .T. ) ;
#186 = ADVANCED_FACE ( 'NONE', ( #271 ), #219, .F. ) ;
#187 = ORIENTED_EDGE ( 'NONE', *, *, #105, .F. ) ;
#188 = CYLINDRICAL_SURFACE ( 'NONE', #103, 6.349999999999999645 ) ;
#189 = DIRECTION ( 'NONE',  ( -1.000000000000000000, -0.000000000000000000, -0.000000000000000000 ) ) ;
#190 = DIRECTION ( 'NONE',  ( -1.000000000000000000, -0.000000000000000000, -0.000000000000000000 ) ) ;
#191 = FACE_OUTER_BOUND ( 'NONE', #215, .T. ) ;
#192 = DIRECTION ( 'NONE',  ( -1.000000000000000000, -0.000000000000000000, -0.000000000000000000 ) ) ;
#193 = CARTESIAN_POINT ( 'NONE',  ( -1.614212418857619014, 7.776507174585692163E-16, -6.349999999999999645 ) ) ;
#194 = LINE ( 'NONE', #67, #100 ) ;
#195 = AXIS2_PLACEMENT_3D ( 'NONE', #318, #138, #267 ) ;
#196 = PLANE ( 'NONE',  #80 ) ;
#197 = CALENDAR_DATE ( 2020, 23, 12 ) ;
#198 = ADVANCED_FACE ( 'NONE', ( #247 ), #19, .T. ) ;
#199 = CARTESIAN_POINT ( 'NONE',  ( -1.500000000000000444, 6.349999999999999645, 0.000000000000000000 ) ) ;
#200 = DIRECTION ( 'NONE',  ( -1.000000000000000000, -0.000000000000000000, -0.000000000000000000 ) ) ;
#201 = SECURITY_CLASSIFICATION_LEVEL ( 'unclassified' ) ;
#202 = CC_DESIGN_APPROVAL ( #203, ( #49 ) ) ;
#203 = APPROVAL ( #224, 'UNSPECIFIED' ) ;
#204 = ADVANCED_FACE ( 'NONE', ( #137 ), #147, .F. ) ;
#205 = PERSON_AND_ORGANIZATION ( #116, #303 ) ;
#206 = SHAPE_DEFINITION_REPRESENTATION ( #85, #232 ) ;
#207 = CALENDAR_DATE ( 2020, 23, 12 ) ;
#208 = PERSON_AND_ORGANIZATION ( #116, #303 ) ;
#209 = VERTEX_POINT ( 'NONE', #319 ) ;
#210 = EDGE_LOOP ( 'NONE', ( #184, #58 ) ) ;
#211 = AXIS2_PLACEMENT_3D ( 'NONE', #165, #88, #39 ) ;
#212 = EDGE_CURVE ( 'NONE', #182, #287, #145, .T. ) ;
#213 = ORIENTED_EDGE ( 'NONE', *, *, #333, .F. ) ;
#214 = VERTEX_POINT ( 'NONE', #323 ) ;
#215 = EDGE_LOOP ( 'NONE', ( #282, #261, #79, #314 ) ) ;
#216 = APPROVAL ( #128, 'UNSPECIFIED' ) ;
#217 = CYLINDRICAL_SURFACE ( 'NONE', #148, 6.349999999999999645 ) ;
#218 =( GEOMETRIC_REPRESENTATION_CONTEXT ( 3 ) GLOBAL_UNCERTAINTY_ASSIGNED_CONTEXT ( ( #172 ) ) GLOBAL_UNIT_ASSIGNED_CONTEXT ( ( #20, #174, #124 ) ) REPRESENTATION_CONTEXT ( 'NONE', 'WORKASPACE' ) );
#219 = PLANE ( 'NONE',  #127 ) ;
#220 = CARTESIAN_POINT ( 'NONE',  ( -1.614212418857619014, 0.000000000000000000, 6.349999999999999645 ) ) ;
#221 = MANIFOLD_SOLID_BREP ( 'Ðý×', #51 ) ;
#222 = FACE_OUTER_BOUND ( 'NONE', #316, .T. ) ;
#223 = DIRECTION ( 'NONE',  ( 0.000000000000000000, 0.000000000000000000, -1.000000000000000000 ) ) ;
#224 = APPROVAL_STATUS ( 'not_yet_approved' ) ;
#225 = DIRECTION ( 'NONE',  ( 1.000000000000000000, 0.000000000000000000, 0.000000000000000000 ) ) ;
#226 = DIRECTION ( 'NONE',  ( 0.000000000000000000, 0.000000000000000000, 1.000000000000000000 ) ) ;
#227 = EDGE_CURVE ( 'NONE', #315, #4, #86, .T. ) ;
#228 = DIRECTION ( 'NONE',  ( 0.000000000000000000, 0.000000000000000000, -1.000000000000000000 ) ) ;
#229 = AXIS2_PLACEMENT_3D ( 'NONE', #167, #177, #173 ) ;
#230 = CARTESIAN_POINT ( 'NONE',  ( -3.000000000000000000, 0.000000000000000000, 0.000000000000000000 ) ) ;
#231 = FACE_OUTER_BOUND ( 'NONE', #83, .T. ) ;
#232 = ADVANCED_BREP_SHAPE_REPRESENTATION ( 'Q-QZWP-R4-12.7-780-M', ( #221, #114 ), #218 ) ;
#233 = PERSON_AND_ORGANIZATION_ROLE ( 'creator' ) ;
#234 = CIRCLE ( 'NONE', #129, 6.349999999999999645 ) ;
#235 = CALENDAR_DATE ( 2020, 23, 12 ) ;
#236 = COORDINATED_UNIVERSAL_TIME_OFFSET ( 8, 0, .AHEAD. ) ;
#237 = CIRCLE ( 'NONE', #125, 6.349999999999999645 ) ;
#238 = ORIENTED_EDGE ( 'NONE', *, *, #306, .T. ) ;
#239 = EDGE_LOOP ( 'NONE', ( #55, #238 ) ) ;
#240 = EDGE_CURVE ( 'NONE', #110, #3, #46, .T. ) ;
#241 = ORIENTED_EDGE ( 'NONE', *, *, #279, .T. ) ;
#242 = ORIENTED_EDGE ( 'NONE', *, *, #306, .F. ) ;
#243 = CARTESIAN_POINT ( 'NONE',  ( -2.999999999999999556, 0.000000000000000000, 0.000000000000000000 ) ) ;
#244 = DIRECTION ( 'NONE',  ( -1.000000000000000000, -0.000000000000000000, -0.000000000000000000 ) ) ;
#245 = DIRECTION ( 'NONE',  ( -1.000000000000000000, -0.000000000000000000, -0.000000000000000000 ) ) ;
#246 = PRODUCT_DEFINITION_FORMATION_WITH_SPECIFIED_SOURCE ( 'ANY', '', #297, .NOT_KNOWN. ) ;
#247 = FACE_OUTER_BOUND ( 'NONE', #5, .T. ) ;
#248 = FACE_BOUND ( 'NONE', #130, .T. ) ;
#249 = CARTESIAN_POINT ( 'NONE',  ( 3.000000000000000888, 7.776507174585692163E-16, -6.349999999999999645 ) ) ;
#250 = PERSON_AND_ORGANIZATION ( #116, #303 ) ;
#251 = EDGE_CURVE ( 'NONE', #8, #108, #194, .T. ) ;
#252 = FACE_BOUND ( 'NONE', #161, .T. ) ;
#253 = DIRECTION ( 'NONE',  ( 0.000000000000000000, 0.000000000000000000, 1.000000000000000000 ) ) ;
#254 = DIRECTION ( 'NONE',  ( 1.000000000000000000, 0.000000000000000000, 0.000000000000000000 ) ) ;
#255 = CIRCLE ( 'NONE', #94, 6.349999999999999645 ) ;
#256 = APPLICATION_CONTEXT ( 'configuration controlled 3d designs of mechanical parts and assemblies' ) ;
#257 = PERSON_AND_ORGANIZATION_ROLE ( 'design_supplier' ) ;
#258 = ORIENTED_EDGE ( 'NONE', *, *, #212, .T. ) ;
#259 = EDGE_LOOP ( 'NONE', ( #185, #286, #82, #311 ) ) ;
#260 = CC_DESIGN_PERSON_AND_ORGANIZATION_ASSIGNMENT ( #208, #233, ( #246 ) ) ;
#261 = ORIENTED_EDGE ( 'NONE', *, *, #307, .T. ) ;
#262 = ORIENTED_EDGE ( 'NONE', *, *, #142, .T. ) ;
#263 = AXIS2_PLACEMENT_3D ( 'NONE', #121, #225, #92 ) ;
#264 = ORIENTED_EDGE ( 'NONE', *, *, #48, .F. ) ;
#265 = CARTESIAN_POINT ( 'NONE',  ( -1.614212418857619014, 0.000000000000000000, 0.000000000000000000 ) ) ;
#266 = PERSON_AND_ORGANIZATION_ROLE ( 'design_owner' ) ;
#267 = DIRECTION ( 'NONE',  ( -0.000000000000000000, 0.000000000000000000, 1.000000000000000000 ) ) ;
#268 = VECTOR ( 'NONE', #244, 1000.000000000000000 ) ;
#269 = CC_DESIGN_PERSON_AND_ORGANIZATION_ASSIGNMENT ( #328, #266, ( #297 ) ) ;
#270 = DATE_AND_TIME ( #90, #11 ) ;
#271 = FACE_OUTER_BOUND ( 'NONE', #210, .T. ) ;
#272 = DIRECTION ( 'NONE',  ( -1.000000000000000000, 0.000000000000000000, -0.000000000000000000 ) ) ;
#273 = CARTESIAN_POINT ( 'NONE',  ( 3.000000000000000000, 1.555301434917138433E-15, -12.69999999999999929 ) ) ;
#274 = CC_DESIGN_DATE_AND_TIME_ASSIGNMENT ( #300, #334, ( #49 ) ) ;
#275 = DIRECTION ( 'NONE',  ( -1.000000000000000000, -0.000000000000000000, -0.000000000000000000 ) ) ;
#276 = CIRCLE ( 'NONE', #134, 6.349999999999999645 ) ;
#277 = ADVANCED_FACE ( 'NONE', ( #45 ), #21, .T. ) ;
#278 = APPROVAL_DATE_TIME ( #73, #293 ) ;
#279 = EDGE_CURVE ( 'NONE', #30, #214, #237, .T. ) ;
#280 = AXIS2_PLACEMENT_3D ( 'NONE', #115, #189, #291 ) ;
#281 = PERSON_AND_ORGANIZATION ( #116, #303 ) ;
#282 = ORIENTED_EDGE ( 'NONE', *, *, #180, .T. ) ;
#283 = CC_DESIGN_PERSON_AND_ORGANIZATION_ASSIGNMENT ( #101, #150, ( #183 ) ) ;
#284 = EDGE_LOOP ( 'NONE', ( #78, #288 ) ) ;
#285 = APPROVAL_PERSON_ORGANIZATION ( #281, #216, #77 ) ;
#286 = ORIENTED_EDGE ( 'NONE', *, *, #227, .T. ) ;
#287 = VERTEX_POINT ( 'NONE', #93 ) ;
#288 = ORIENTED_EDGE ( 'NONE', *, *, #240, .F. ) ;
#289 = CIRCLE ( 'NONE', #75, 12.69999999999999929 ) ;
#290 = FACE_OUTER_BOUND ( 'NONE', #9, .T. ) ;
#291 = DIRECTION ( 'NONE',  ( 0.000000000000000000, 0.000000000000000000, 1.000000000000000000 ) ) ;
#292 = CYLINDRICAL_SURFACE ( 'NONE', #18, 6.349999999999999645 ) ;
#293 = APPROVAL ( #154, 'UNSPECIFIED' ) ;
#294 = DIRECTION ( 'NONE',  ( -1.000000000000000000, -0.000000000000000000, -0.000000000000000000 ) ) ;
#295 = DIRECTION ( 'NONE',  ( 1.000000000000000000, 0.000000000000000000, 0.000000000000000000 ) ) ;
#296 = DIRECTION ( 'NONE',  ( 1.000000000000000000, 0.000000000000000000, 0.000000000000000000 ) ) ;
#297 = PRODUCT ( 'Q-QZWP-R4-12.7-780-M', 'Q-QZWP-R4-12.7-780-M', '', ( #146 ) ) ;
#298 = COORDINATED_UNIVERSAL_TIME_OFFSET ( 8, 0, .AHEAD. ) ;
#299 = CARTESIAN_POINT ( 'NONE',  ( 3.000000000000000000, 0.000000000000000000, 0.000000000000000000 ) ) ;
#300 = DATE_AND_TIME ( #197, #54 ) ;
#301 = DIRECTION ( 'NONE',  ( 0.000000000000000000, 0.000000000000000000, 1.000000000000000000 ) ) ;
#302 = DIRECTION ( 'NONE',  ( 0.000000000000000000, 0.000000000000000000, 1.000000000000000000 ) ) ;
#303 = ORGANIZATION ( 'UNSPECIFIED', 'UNSPECIFIED', '' ) ;
#304 = PERSON_AND_ORGANIZATION ( #116, #303 ) ;
#305 = EDGE_CURVE ( 'NONE', #108, #4, #179, .T. ) ;
#306 = EDGE_CURVE ( 'NONE', #4, #108, #26, .T. ) ;
#307 = EDGE_CURVE ( 'NONE', #110, #214, #122, .T. ) ;
#308 = VECTOR ( 'NONE', #140, 1000.000000000000000 ) ;
#309 = EDGE_CURVE ( 'NONE', #3, #30, #98, .T. ) ;
#310 = ORIENTED_EDGE ( 'NONE', *, *, #251, .T. ) ;
#311 = ORIENTED_EDGE ( 'NONE', *, *, #251, .F. ) ;
#312 = AXIS2_PLACEMENT_3D ( 'NONE', #199, #254, #223 ) ;
#313 = CC_DESIGN_SECURITY_CLASSIFICATION ( #183, ( #246 ) ) ;
#314 = ORIENTED_EDGE ( 'NONE', *, *, #309, .F. ) ;
#315 = VERTEX_POINT ( 'NONE', #273 ) ;
#316 = EDGE_LOOP ( 'NONE', ( #135, #213, #262, #81 ) ) ;
#317 = AXIS2_PLACEMENT_3D ( 'NONE', #13, #64, #143 ) ;
#318 = CARTESIAN_POINT ( 'NONE',  ( 3.000000000000000000, 12.69999999999999929, 0.000000000000000000 ) ) ;
#319 = CARTESIAN_POINT ( 'NONE',  ( 3.000000000000000888, 0.000000000000000000, 6.349999999999999645 ) ) ;
#320 = CARTESIAN_POINT ( 'NONE',  ( 3.000000000000000888, 0.000000000000000000, 0.000000000000000000 ) ) ;
#321 = PRODUCT_RELATED_PRODUCT_CATEGORY ( 'detail', '', ( #297 ) ) ;
#322 = PLANE ( 'NONE',  #195 ) ;
#323 = CARTESIAN_POINT ( 'NONE',  ( -2.999999999999999556, 7.776507174585692163E-16, -6.349999999999999645 ) ) ;
#324 = APPROVAL_ROLE ( '' ) ;
#325 = CARTESIAN_POINT ( 'NONE',  ( -1.614212418857619014, 0.000000000000000000, 0.000000000000000000 ) ) ;
#326 = APPROVAL_DATE_TIME ( #270, #203 ) ;
#327 = CIRCLE ( 'NONE', #229, 6.349999999999999645 ) ;
#328 = PERSON_AND_ORGANIZATION ( #116, #303 ) ;
#329 = DIRECTION ( 'NONE',  ( 0.000000000000000000, 0.000000000000000000, 1.000000000000000000 ) ) ;
#330 = DIRECTION ( 'NONE',  ( -1.000000000000000000, -0.000000000000000000, -0.000000000000000000 ) ) ;
#331 = APPROVAL_DATE_TIME ( #74, #216 ) ;
#332 = CC_DESIGN_APPROVAL ( #216, ( #246 ) ) ;
#333 = EDGE_CURVE ( 'NONE', #209, #182, #162, .T. ) ;
#334 = DATE_TIME_ROLE ( 'creation_date' ) ;
#335 = COORDINATED_UNIVERSAL_TIME_OFFSET ( 8, 0, .AHEAD. ) ;
ENDSEC;
END-ISO-10303-21;
